ISO-10303-21;
HEADER;
FILE_DESCRIPTION (( 'STEP AP203' ),
    '1' );
FILE_NAME ('QM-AAHWP-20-550-750-M.STEP',
    '2021-01-05T02:33:37',
    ( '' ),
    ( '' ),
    'SwSTEP 2.0',
    'SolidWorks 2020',
    '' );
FILE_SCHEMA (( 'CONFIG_CONTROL_DESIGN' ));
ENDSEC;

DATA;
#1 = FACE_OUTER_BOUND ( 'NONE', #87, .T. ) ;
#2 = LINE ( 'NONE', #335, #291 ) ;
#3 = PERSON ( 'UNSPECIFIED', 'UNSPECIFIED', 'UNSPECIFIED', ('UNSPECIFIED'), ('UNSPECIFIED'), ('UNSPECIFIED') ) ;
#4 = DIRECTION ( 'NONE',  ( -1.000000000000000000, -0.000000000000000000, -0.000000000000000000 ) ) ;
#5 = APPROVAL_STATUS ( 'not_yet_approved' ) ;
#6 = CARTESIAN_POINT ( 'NONE',  ( -1.614212418857619014, 0.000000000000000000, 0.000000000000000000 ) ) ;
#7 = ADVANCED_FACE ( 'NONE', ( #77 ), #183, .F. ) ;
#8 = DIRECTION ( 'NONE',  ( -1.000000000000000000, -0.000000000000000000, -0.000000000000000000 ) ) ;
#9 = LOCAL_TIME ( 10, 33, 37.00000000000000000, #141 ) ;
#10 = APPROVAL_ROLE ( '' ) ;
#11 = CARTESIAN_POINT ( 'NONE',  ( -3.000000000000000000, 10.00000000000000000, 0.000000000000000000 ) ) ;
#12 = PERSON_AND_ORGANIZATION ( #3, #216 ) ;
#13 = CIRCLE ( 'NONE', #196, 12.69999999999999929 ) ;
#14 = EDGE_LOOP ( 'NONE', ( #38, #326, #191, #145 ) ) ;
#15 = VERTEX_POINT ( 'NONE', #152 ) ;
#16 = EDGE_CURVE ( 'NONE', #15, #190, #2, .T. ) ;
#17 = AXIS2_PLACEMENT_3D ( 'NONE', #158, #97, #229 ) ;
#18 = EDGE_CURVE ( 'NONE', #190, #325, #282, .T. ) ;
#19 = ORIENTED_EDGE ( 'NONE', *, *, #160, .T. ) ;
#20 = EDGE_LOOP ( 'NONE', ( #148, #217 ) ) ;
#21 = CARTESIAN_POINT ( 'NONE',  ( -3.000000000000000000, 1.555301434917138433E-15, -12.69999999999999929 ) ) ;
#22 = AXIS2_PLACEMENT_3D ( 'NONE', #154, #50, #149 ) ;
#23 = DIRECTION ( 'NONE',  ( -1.000000000000000000, -0.000000000000000000, -0.000000000000000000 ) ) ;
#24 = CC_DESIGN_APPROVAL ( #249, ( #252 ) ) ;
#25 = PERSON_AND_ORGANIZATION ( #3, #216 ) ;
#26 = CARTESIAN_POINT ( 'NONE',  ( -1.614212418857619014, 1.224646799147353256E-15, -10.00000000000000000 ) ) ;
#27 = PERSON_AND_ORGANIZATION_ROLE ( 'design_owner' ) ;
#28 = EDGE_LOOP ( 'NONE', ( #247, #234 ) ) ;
#29 = LINE ( 'NONE', #69, #331 ) ;
#30 = AXIS2_PLACEMENT_3D ( 'NONE', #103, #99, #121 ) ;
#31 = PERSON_AND_ORGANIZATION ( #3, #216 ) ;
#32 = DIRECTION ( 'NONE',  ( 0.000000000000000000, 0.000000000000000000, 1.000000000000000000 ) ) ;
#33 = APPROVAL_ROLE ( '' ) ;
#34 = FACE_OUTER_BOUND ( 'NONE', #270, .T. ) ;
#35 = CIRCLE ( 'NONE', #72, 10.00000000000000000 ) ;
#36 = AXIS2_PLACEMENT_3D ( 'NONE', #165, #78, #32 ) ;
#37 = CC_DESIGN_APPROVAL ( #245, ( #271 ) ) ;
#38 = ORIENTED_EDGE ( 'NONE', *, *, #61, .F. ) ;
#39 = ADVANCED_FACE ( 'NONE', ( #181 ), #259, .F. ) ;
#40 = ORIENTED_EDGE ( 'NONE', *, *, #138, .F. ) ;
#41 = LOCAL_TIME ( 10, 33, 37.00000000000000000, #258 ) ;
#42 = ORIENTED_EDGE ( 'NONE', *, *, #293, .T. ) ;
#43 = MECHANICAL_CONTEXT ( 'NONE', #83, 'mechanical' ) ;
#44 = ORIENTED_EDGE ( 'NONE', *, *, #146, .F. ) ;
#45 =( LENGTH_UNIT ( ) NAMED_UNIT ( * ) SI_UNIT ( .MILLI., .METRE. ) );
#46 = CARTESIAN_POINT ( 'NONE',  ( 0.5000000000000006661, 10.00000000000000000, 0.000000000000000000 ) ) ;
#47 = APPROVAL_DATE_TIME ( #200, #245 ) ;
#48 = LINE ( 'NONE', #26, #215 ) ;
#49 = EDGE_CURVE ( 'NONE', #173, #63, #124, .T. ) ;
#50 = DIRECTION ( 'NONE',  ( 1.000000000000000000, 0.000000000000000000, 0.000000000000000000 ) ) ;
#51 = CARTESIAN_POINT ( 'NONE',  ( -3.000000000000000000, 0.000000000000000000, 10.00000000000000000 ) ) ;
#52 = ADVANCED_FACE ( 'NONE', ( #225 ), #157, .F. ) ;
#53 = CARTESIAN_POINT ( 'NONE',  ( 0.5000000000000013323, 0.000000000000000000, 0.000000000000000000 ) ) ;
#54 = AXIS2_PLACEMENT_3D ( 'NONE', #6, #320, #289 ) ;
#55 = CALENDAR_DATE ( 2021, 5, 1 ) ;
#56 = CARTESIAN_POINT ( 'NONE',  ( 0.5000000000000013323, 0.000000000000000000, 10.00000000000000000 ) ) ;
#57 = PERSON_AND_ORGANIZATION_ROLE ( 'creator' ) ;
#58 = DIRECTION ( 'NONE',  ( 0.000000000000000000, 0.000000000000000000, 1.000000000000000000 ) ) ;
#59 = AXIS2_PLACEMENT_3D ( 'NONE', #317, #136, #238 ) ;
#60 = DATE_TIME_ROLE ( 'creation_date' ) ;
#61 = EDGE_CURVE ( 'NONE', #244, #325, #48, .T. ) ;
#62 = ORIENTED_EDGE ( 'NONE', *, *, #104, .T. ) ;
#63 = VERTEX_POINT ( 'NONE', #198 ) ;
#64 = ORIENTED_EDGE ( 'NONE', *, *, #319, .T. ) ;
#65 =( NAMED_UNIT ( * ) PLANE_ANGLE_UNIT ( ) SI_UNIT ( $, .RADIAN. ) );
#66 = VERTEX_POINT ( 'NONE', #51 ) ;
#67 = EDGE_CURVE ( 'NONE', #296, #150, #303, .T. ) ;
#68 = DIRECTION ( 'NONE',  ( 0.000000000000000000, 0.000000000000000000, 1.000000000000000000 ) ) ;
#69 = CARTESIAN_POINT ( 'NONE',  ( -1.614212418857619014, 1.555301434917138433E-15, -12.69999999999999929 ) ) ;
#70 = CYLINDRICAL_SURFACE ( 'NONE', #116, 10.00000000000000000 ) ;
#71 = DIRECTION ( 'NONE',  ( -1.000000000000000000, -0.000000000000000000, -0.000000000000000000 ) ) ;
#72 = AXIS2_PLACEMENT_3D ( 'NONE', #202, #120, #205 ) ;
#73 = DIRECTION ( 'NONE',  ( 0.000000000000000000, 0.000000000000000000, 1.000000000000000000 ) ) ;
#74 = CARTESIAN_POINT ( 'NONE',  ( -1.614212418857619014, 0.000000000000000000, 0.000000000000000000 ) ) ;
#75 = ORIENTED_EDGE ( 'NONE', *, *, #146, .T. ) ;
#76 = COORDINATED_UNIVERSAL_TIME_OFFSET ( 8, 0, .AHEAD. ) ;
#77 = FACE_OUTER_BOUND ( 'NONE', #328, .T. ) ;
#78 = DIRECTION ( 'NONE',  ( -1.000000000000000000, -0.000000000000000000, -0.000000000000000000 ) ) ;
#79 = AXIS2_PLACEMENT_3D ( 'NONE', #197, #255, #127 ) ;
#80 = APPROVAL_PERSON_ORGANIZATION ( #161, #187, #10 ) ;
#81 = CARTESIAN_POINT ( 'NONE',  ( -1.614212418857619014, 0.000000000000000000, 12.69999999999999929 ) ) ;
#82 = DATE_AND_TIME ( #263, #125 ) ;
#83 = APPLICATION_CONTEXT ( 'configuration controlled 3d designs of mechanical parts and assemblies' ) ;
#84 = EDGE_CURVE ( 'NONE', #63, #173, #13, .T. ) ;
#85 = LOCAL_TIME ( 10, 33, 37.00000000000000000, #130 ) ;
#86 = ADVANCED_FACE ( 'NONE', ( #126 ), #278, .T. ) ;
#87 = EDGE_LOOP ( 'NONE', ( #64, #115, #117, #269 ) ) ;
#88 = EDGE_LOOP ( 'NONE', ( #193, #171 ) ) ;
#89 = DESIGN_CONTEXT ( 'detailed design', #92, 'design' ) ;
#90 = ORIENTED_EDGE ( 'NONE', *, *, #151, .F. ) ;
#91 = VERTEX_POINT ( 'NONE', #309 ) ;
#92 = APPLICATION_CONTEXT ( 'configuration controlled 3d designs of mechanical parts and assemblies' ) ;
#93 = CARTESIAN_POINT ( 'NONE',  ( -0.5000000000000006661, 1.224646799147353256E-15, -10.00000000000000000 ) ) ;
#94 = FACE_BOUND ( 'NONE', #327, .T. ) ;
#95 = CARTESIAN_POINT ( 'NONE',  ( -1.614212418857619014, 1.224646799147353256E-15, -10.00000000000000000 ) ) ;
#96 = CALENDAR_DATE ( 2021, 5, 1 ) ;
#97 = DIRECTION ( 'NONE',  ( -1.000000000000000000, -0.000000000000000000, -0.000000000000000000 ) ) ;
#98 = CC_DESIGN_PERSON_AND_ORGANIZATION_ASSIGNMENT ( #31, #110, ( #267 ) ) ;
#99 = DIRECTION ( 'NONE',  ( 1.000000000000000000, 0.000000000000000000, 0.000000000000000000 ) ) ;
#100 = APPROVAL_STATUS ( 'not_yet_approved' ) ;
#101 = CARTESIAN_POINT ( 'NONE',  ( -3.000000000000000000, 0.000000000000000000, 0.000000000000000000 ) ) ;
#102 = CALENDAR_DATE ( 2021, 5, 1 ) ;
#103 = CARTESIAN_POINT ( 'NONE',  ( -0.5000000000000006661, 10.00000000000000000, 0.000000000000000000 ) ) ;
#104 = EDGE_CURVE ( 'NONE', #66, #91, #251, .T. ) ;
#105 = FACE_OUTER_BOUND ( 'NONE', #294, .T. ) ;
#106 = DIRECTION ( 'NONE',  ( -1.000000000000000000, -0.000000000000000000, -0.000000000000000000 ) ) ;
#107 = CIRCLE ( 'NONE', #79, 10.00000000000000000 ) ;
#108 = AXIS2_PLACEMENT_3D ( 'NONE', #310, #201, #315 ) ;
#109 = APPROVAL_PERSON_ORGANIZATION ( #334, #245, #176 ) ;
#110 = PERSON_AND_ORGANIZATION_ROLE ( 'design_supplier' ) ;
#111 = DIRECTION ( 'NONE',  ( -1.000000000000000000, -0.000000000000000000, -0.000000000000000000 ) ) ;
#112 = AXIS2_PLACEMENT_3D ( 'NONE', #285, #163, #203 ) ;
#113 = ORIENTED_EDGE ( 'NONE', *, *, #18, .F. ) ;
#114 = EDGE_CURVE ( 'NONE', #276, #66, #312, .T. ) ;
#115 = ORIENTED_EDGE ( 'NONE', *, *, #138, .T. ) ;
#116 = AXIS2_PLACEMENT_3D ( 'NONE', #74, #306, #301 ) ;
#117 = ORIENTED_EDGE ( 'NONE', *, *, #261, .T. ) ;
#118 = PRODUCT ( 'QM-AAHWP-20-550-750-M', 'QM-AAHWP-20-550-750-M', '', ( #43 ) ) ;
#119 = ORIENTED_EDGE ( 'NONE', *, *, #122, .T. ) ;
#120 = DIRECTION ( 'NONE',  ( 1.000000000000000000, 0.000000000000000000, 0.000000000000000000 ) ) ;
#121 = DIRECTION ( 'NONE',  ( 0.000000000000000000, 0.000000000000000000, -1.000000000000000000 ) ) ;
#122 = EDGE_CURVE ( 'NONE', #325, #190, #284, .T. ) ;
#123 = DIRECTION ( 'NONE',  ( 1.000000000000000000, 0.000000000000000000, 0.000000000000000000 ) ) ;
#124 = CIRCLE ( 'NONE', #147, 12.69999999999999929 ) ;
#125 = LOCAL_TIME ( 10, 33, 37.00000000000000000, #76 ) ;
#126 = FACE_OUTER_BOUND ( 'NONE', #330, .T. ) ;
#127 = DIRECTION ( 'NONE',  ( 0.000000000000000000, 0.000000000000000000, 1.000000000000000000 ) ) ;
#128 = CARTESIAN_POINT ( 'NONE',  ( -1.614212418857619014, 0.000000000000000000, 10.00000000000000000 ) ) ;
#129 = EDGE_CURVE ( 'NONE', #173, #296, #29, .T. ) ;
#130 = COORDINATED_UNIVERSAL_TIME_OFFSET ( 8, 0, .AHEAD. ) ;
#131 = CARTESIAN_POINT ( 'NONE',  ( 3.000000000000000000, 0.000000000000000000, 0.000000000000000000 ) ) ;
#132 = CIRCLE ( 'NONE', #281, 10.00000000000000000 ) ;
#133 = DIRECTION ( 'NONE',  ( -1.000000000000000000, -0.000000000000000000, -0.000000000000000000 ) ) ;
#134 = PERSON_AND_ORGANIZATION ( #3, #216 ) ;
#135 = LINE ( 'NONE', #81, #272 ) ;
#136 = DIRECTION ( 'NONE',  ( -1.000000000000000000, -0.000000000000000000, -0.000000000000000000 ) ) ;
#137 = SECURITY_CLASSIFICATION_LEVEL ( 'unclassified' ) ;
#138 = EDGE_CURVE ( 'NONE', #298, #91, #333, .T. ) ;
#139 = CARTESIAN_POINT ( 'NONE',  ( -3.000000000000000000, 0.000000000000000000, 0.000000000000000000 ) ) ;
#140 = AXIS2_PLACEMENT_3D ( 'NONE', #206, #71, #73 ) ;
#141 = COORDINATED_UNIVERSAL_TIME_OFFSET ( 8, 0, .AHEAD. ) ;
#142 = UNCERTAINTY_MEASURE_WITH_UNIT (LENGTH_MEASURE( 1.000000000000000082E-05 ), #45, 'distance_accuracy_value', 'NONE');
#143 = AXIS2_PLACEMENT_3D ( 'NONE', #11, #264, #287 ) ;
#144 = ORIENTED_EDGE ( 'NONE', *, *, #129, .T. ) ;
#145 = ORIENTED_EDGE ( 'NONE', *, *, #18, .T. ) ;
#146 = EDGE_CURVE ( 'NONE', #63, #150, #135, .T. ) ;
#147 = AXIS2_PLACEMENT_3D ( 'NONE', #182, #208, #155 ) ;
#148 = ORIENTED_EDGE ( 'NONE', *, *, #319, .F. ) ;
#149 = DIRECTION ( 'NONE',  ( 0.000000000000000000, 0.000000000000000000, -1.000000000000000000 ) ) ;
#150 = VERTEX_POINT ( 'NONE', #213 ) ;
#151 = EDGE_CURVE ( 'NONE', #150, #296, #178, .T. ) ;
#152 = CARTESIAN_POINT ( 'NONE',  ( 2.999999999999999112, 0.000000000000000000, 10.00000000000000000 ) ) ;
#153 = CC_DESIGN_PERSON_AND_ORGANIZATION_ASSIGNMENT ( #329, #27, ( #118 ) ) ;
#154 = CARTESIAN_POINT ( 'NONE',  ( -0.5000000000000006661, 0.000000000000000000, 0.000000000000000000 ) ) ;
#155 = DIRECTION ( 'NONE',  ( 0.000000000000000000, 0.000000000000000000, 1.000000000000000000 ) ) ;
#156 = CARTESIAN_POINT ( 'NONE',  ( 0.000000000000000000, 0.000000000000000000, 0.000000000000000000 ) ) ;
#157 = CYLINDRICAL_SURFACE ( 'NONE', #226, 10.00000000000000000 ) ;
#158 = CARTESIAN_POINT ( 'NONE',  ( -1.614212418857619014, 0.000000000000000000, 0.000000000000000000 ) ) ;
#159 = DIRECTION ( 'NONE',  ( 0.000000000000000000, 0.000000000000000000, 1.000000000000000000 ) ) ;
#160 = EDGE_CURVE ( 'NONE', #15, #244, #132, .T. ) ;
#161 = PERSON_AND_ORGANIZATION ( #3, #216 ) ;
#162 = AXIS2_PLACEMENT_3D ( 'NONE', #101, #250, #228 ) ;
#163 = DIRECTION ( 'NONE',  ( -1.000000000000000000, -0.000000000000000000, -0.000000000000000000 ) ) ;
#164 = SHAPE_DEFINITION_REPRESENTATION ( #189, #280 ) ;
#165 = CARTESIAN_POINT ( 'NONE',  ( -1.614212418857619014, 0.000000000000000000, 0.000000000000000000 ) ) ;
#166 = ADVANCED_FACE ( 'NONE', ( #34 ), #323, .F. ) ;
#167 = FACE_BOUND ( 'NONE', #28, .T. ) ;
#168 = CC_DESIGN_PERSON_AND_ORGANIZATION_ASSIGNMENT ( #12, #57, ( #267 ) ) ;
#169 = AXIS2_PLACEMENT_3D ( 'NONE', #53, #307, #159 ) ;
#170 = EDGE_LOOP ( 'NONE', ( #223, #241 ) ) ;
#171 = ORIENTED_EDGE ( 'NONE', *, *, #49, .F. ) ;
#172 =( GEOMETRIC_REPRESENTATION_CONTEXT ( 3 ) GLOBAL_UNCERTAINTY_ASSIGNED_CONTEXT ( ( #142 ) ) GLOBAL_UNIT_ASSIGNED_CONTEXT ( ( #45, #65, #224 ) ) REPRESENTATION_CONTEXT ( 'NONE', 'WORKASPACE' ) );
#173 = VERTEX_POINT ( 'NONE', #186 ) ;
#174 = DIRECTION ( 'NONE',  ( -1.000000000000000000, 0.000000000000000000, -0.000000000000000000 ) ) ;
#175 = DIRECTION ( 'NONE',  ( 0.000000000000000000, 0.000000000000000000, 1.000000000000000000 ) ) ;
#176 = APPROVAL_ROLE ( '' ) ;
#177 = DIRECTION ( 'NONE',  ( -1.000000000000000000, -0.000000000000000000, -0.000000000000000000 ) ) ;
#178 = CIRCLE ( 'NONE', #292, 12.69999999999999929 ) ;
#179 = DIRECTION ( 'NONE',  ( -0.000000000000000000, 0.000000000000000000, 1.000000000000000000 ) ) ;
#180 = VECTOR ( 'NONE', #177, 1000.000000000000000 ) ;
#181 = FACE_OUTER_BOUND ( 'NONE', #20, .T. ) ;
#182 = CARTESIAN_POINT ( 'NONE',  ( 3.000000000000000000, 0.000000000000000000, 0.000000000000000000 ) ) ;
#183 = PLANE ( 'NONE',  #221 ) ;
#184 = CC_DESIGN_APPROVAL ( #187, ( #267 ) ) ;
#185 = FACE_OUTER_BOUND ( 'NONE', #170, .T. ) ;
#186 = CARTESIAN_POINT ( 'NONE',  ( 3.000000000000000000, 1.555301434917138433E-15, -12.69999999999999929 ) ) ;
#187 = APPROVAL ( #5, 'UNSPECIFIED' ) ;
#188 = PERSON_AND_ORGANIZATION_ROLE ( 'classification_officer' ) ;
#189 = PRODUCT_DEFINITION_SHAPE ( 'NONE', 'NONE',  #271 ) ;
#190 = VERTEX_POINT ( 'NONE', #56 ) ;
#191 = ORIENTED_EDGE ( 'NONE', *, *, #16, .T. ) ;
#192 = ORIENTED_EDGE ( 'NONE', *, *, #122, .F. ) ;
#193 = ORIENTED_EDGE ( 'NONE', *, *, #84, .F. ) ;
#194 = FACE_OUTER_BOUND ( 'NONE', #88, .T. ) ;
#195 = ORIENTED_EDGE ( 'NONE', *, *, #61, .T. ) ;
#196 = AXIS2_PLACEMENT_3D ( 'NONE', #131, #232, #257 ) ;
#197 = CARTESIAN_POINT ( 'NONE',  ( 2.999999999999999112, 0.000000000000000000, 0.000000000000000000 ) ) ;
#198 = CARTESIAN_POINT ( 'NONE',  ( 3.000000000000000000, 0.000000000000000000, 12.69999999999999929 ) ) ;
#199 = ADVANCED_FACE ( 'NONE', ( #105 ), #239, .T. ) ;
#200 = DATE_AND_TIME ( #96, #85 ) ;
#201 = DIRECTION ( 'NONE',  ( -1.000000000000000000, -0.000000000000000000, -0.000000000000000000 ) ) ;
#202 = CARTESIAN_POINT ( 'NONE',  ( -0.5000000000000006661, 0.000000000000000000, 0.000000000000000000 ) ) ;
#203 = DIRECTION ( 'NONE',  ( 0.000000000000000000, 0.000000000000000000, 1.000000000000000000 ) ) ;
#204 = CIRCLE ( 'NONE', #59, 10.00000000000000000 ) ;
#205 = DIRECTION ( 'NONE',  ( 0.000000000000000000, 0.000000000000000000, -1.000000000000000000 ) ) ;
#206 = CARTESIAN_POINT ( 'NONE',  ( -3.000000000000000000, 0.000000000000000000, 0.000000000000000000 ) ) ;
#207 = PERSON_AND_ORGANIZATION_ROLE ( 'creator' ) ;
#208 = DIRECTION ( 'NONE',  ( -1.000000000000000000, -0.000000000000000000, -0.000000000000000000 ) ) ;
#209 = CARTESIAN_POINT ( 'NONE',  ( 2.999999999999999112, 1.224646799147353256E-15, -10.00000000000000000 ) ) ;
#210 = CC_DESIGN_SECURITY_CLASSIFICATION ( #252, ( #267 ) ) ;
#211 = DIRECTION ( 'NONE',  ( 0.000000000000000000, 0.000000000000000000, 1.000000000000000000 ) ) ;
#212 = DATE_TIME_ROLE ( 'classification_date' ) ;
#213 = CARTESIAN_POINT ( 'NONE',  ( -3.000000000000000000, 0.000000000000000000, 12.69999999999999929 ) ) ;
#214 = DATE_AND_TIME ( #55, #9 ) ;
#215 = VECTOR ( 'NONE', #23, 1000.000000000000000 ) ;
#216 = ORGANIZATION ( 'UNSPECIFIED', 'UNSPECIFIED', '' ) ;
#217 = ORIENTED_EDGE ( 'NONE', *, *, #321, .F. ) ;
#218 = ORIENTED_EDGE ( 'NONE', *, *, #84, .T. ) ;
#219 = VECTOR ( 'NONE', #230, 1000.000000000000000 ) ;
#220 = ORIENTED_EDGE ( 'NONE', *, *, #129, .F. ) ;
#221 = AXIS2_PLACEMENT_3D ( 'NONE', #46, #279, #256 ) ;
#222 = ORIENTED_EDGE ( 'NONE', *, *, #16, .F. ) ;
#223 = ORIENTED_EDGE ( 'NONE', *, *, #151, .T. ) ;
#224 =( NAMED_UNIT ( * ) SI_UNIT ( $, .STERADIAN. ) SOLID_ANGLE_UNIT ( ) );
#225 = FACE_OUTER_BOUND ( 'NONE', #246, .T. ) ;
#226 = AXIS2_PLACEMENT_3D ( 'NONE', #283, #253, #175 ) ;
#227 = APPLICATION_PROTOCOL_DEFINITION ( 'international standard', 'config_control_design', 1994, #92 ) ;
#228 = DIRECTION ( 'NONE',  ( 0.000000000000000000, 0.000000000000000000, 1.000000000000000000 ) ) ;
#229 = DIRECTION ( 'NONE',  ( 0.000000000000000000, 0.000000000000000000, 1.000000000000000000 ) ) ;
#230 = DIRECTION ( 'NONE',  ( -1.000000000000000000, -0.000000000000000000, -0.000000000000000000 ) ) ;
#231 = CYLINDRICAL_SURFACE ( 'NONE', #17, 10.00000000000000000 ) ;
#232 = DIRECTION ( 'NONE',  ( -1.000000000000000000, -0.000000000000000000, -0.000000000000000000 ) ) ;
#233 = ADVANCED_FACE ( 'NONE', ( #167, #185 ), #262, .F. ) ;
#234 = ORIENTED_EDGE ( 'NONE', *, *, #261, .F. ) ;
#235 = APPROVAL_DATE_TIME ( #314, #187 ) ;
#236 = CARTESIAN_POINT ( 'NONE',  ( 2.999999999999999112, 0.000000000000000000, 0.000000000000000000 ) ) ;
#237 = CC_DESIGN_DATE_AND_TIME_ASSIGNMENT ( #214, #60, ( #271 ) ) ;
#238 = DIRECTION ( 'NONE',  ( 0.000000000000000000, 0.000000000000000000, 1.000000000000000000 ) ) ;
#239 = CYLINDRICAL_SURFACE ( 'NONE', #36, 12.69999999999999929 ) ;
#240 = CALENDAR_DATE ( 2021, 5, 1 ) ;
#241 = ORIENTED_EDGE ( 'NONE', *, *, #67, .T. ) ;
#242 = CC_DESIGN_DATE_AND_TIME_ASSIGNMENT ( #82, #212, ( #252 ) ) ;
#243 = ORIENTED_EDGE ( 'NONE', *, *, #67, .F. ) ;
#244 = VERTEX_POINT ( 'NONE', #209 ) ;
#245 = APPROVAL ( #100, 'UNSPECIFIED' ) ;
#246 = EDGE_LOOP ( 'NONE', ( #300, #195, #119, #222 ) ) ;
#247 = ORIENTED_EDGE ( 'NONE', *, *, #104, .F. ) ;
#248 = FACE_OUTER_BOUND ( 'NONE', #14, .T. ) ;
#249 = APPROVAL ( #290, 'UNSPECIFIED' ) ;
#250 = DIRECTION ( 'NONE',  ( -1.000000000000000000, -0.000000000000000000, -0.000000000000000000 ) ) ;
#251 = CIRCLE ( 'NONE', #140, 10.00000000000000000 ) ;
#252 = SECURITY_CLASSIFICATION ( '', '', #137 ) ;
#253 = DIRECTION ( 'NONE',  ( -1.000000000000000000, -0.000000000000000000, -0.000000000000000000 ) ) ;
#254 = CC_DESIGN_PERSON_AND_ORGANIZATION_ASSIGNMENT ( #288, #188, ( #252 ) ) ;
#255 = DIRECTION ( 'NONE',  ( -1.000000000000000000, -0.000000000000000000, -0.000000000000000000 ) ) ;
#256 = DIRECTION ( 'NONE',  ( -0.000000000000000000, 0.000000000000000000, 1.000000000000000000 ) ) ;
#257 = DIRECTION ( 'NONE',  ( 0.000000000000000000, 0.000000000000000000, 1.000000000000000000 ) ) ;
#258 = COORDINATED_UNIVERSAL_TIME_OFFSET ( 8, 0, .AHEAD. ) ;
#259 = PLANE ( 'NONE',  #30 ) ;
#260 = CC_DESIGN_PERSON_AND_ORGANIZATION_ASSIGNMENT ( #25, #207, ( #271 ) ) ;
#261 = EDGE_CURVE ( 'NONE', #91, #66, #204, .T. ) ;
#262 = PLANE ( 'NONE',  #143 ) ;
#263 = CALENDAR_DATE ( 2021, 5, 1 ) ;
#264 = DIRECTION ( 'NONE',  ( 1.000000000000000000, 0.000000000000000000, 0.000000000000000000 ) ) ;
#265 = AXIS2_PLACEMENT_3D ( 'NONE', #311, #174, #179 ) ;
#266 = CLOSED_SHELL ( 'NONE', ( #199, #299, #52, #7, #324, #166, #233, #86, #297, #39 ) ) ;
#267 = PRODUCT_DEFINITION_FORMATION_WITH_SPECIFIED_SOURCE ( 'ANY', '', #118, .NOT_KNOWN. ) ;
#268 = ORIENTED_EDGE ( 'NONE', *, *, #49, .T. ) ;
#269 = ORIENTED_EDGE ( 'NONE', *, *, #114, .F. ) ;
#270 = EDGE_LOOP ( 'NONE', ( #40, #273, #302, #62 ) ) ;
#271 = PRODUCT_DEFINITION ( 'UNKNOWN', '', #267, #89 ) ;
#272 = VECTOR ( 'NONE', #8, 1000.000000000000000 ) ;
#273 = ORIENTED_EDGE ( 'NONE', *, *, #321, .T. ) ;
#274 = APPROVAL_PERSON_ORGANIZATION ( #134, #249, #33 ) ;
#275 = APPLICATION_PROTOCOL_DEFINITION ( 'international standard', 'config_control_design', 1994, #83 ) ;
#276 = VERTEX_POINT ( 'NONE', #277 ) ;
#277 = CARTESIAN_POINT ( 'NONE',  ( -0.5000000000000006661, 0.000000000000000000, 10.00000000000000000 ) ) ;
#278 = CYLINDRICAL_SURFACE ( 'NONE', #108, 12.69999999999999929 ) ;
#279 = DIRECTION ( 'NONE',  ( -1.000000000000000000, 0.000000000000000000, -0.000000000000000000 ) ) ;
#280 = ADVANCED_BREP_SHAPE_REPRESENTATION ( 'QM-AAHWP-20-550-750-M', ( #313, #295 ), #172 ) ;
#281 = AXIS2_PLACEMENT_3D ( 'NONE', #236, #106, #58 ) ;
#282 = CIRCLE ( 'NONE', #112, 10.00000000000000000 ) ;
#283 = CARTESIAN_POINT ( 'NONE',  ( -1.614212418857619014, 0.000000000000000000, 0.000000000000000000 ) ) ;
#284 = CIRCLE ( 'NONE', #169, 10.00000000000000000 ) ;
#285 = CARTESIAN_POINT ( 'NONE',  ( 0.5000000000000013323, 0.000000000000000000, 0.000000000000000000 ) ) ;
#286 = APPROVAL_DATE_TIME ( #316, #249 ) ;
#287 = DIRECTION ( 'NONE',  ( 0.000000000000000000, 0.000000000000000000, -1.000000000000000000 ) ) ;
#288 = PERSON_AND_ORGANIZATION ( #3, #216 ) ;
#289 = DIRECTION ( 'NONE',  ( 0.000000000000000000, 0.000000000000000000, 1.000000000000000000 ) ) ;
#290 = APPROVAL_STATUS ( 'not_yet_approved' ) ;
#291 = VECTOR ( 'NONE', #4, 1000.000000000000000 ) ;
#292 = AXIS2_PLACEMENT_3D ( 'NONE', #139, #111, #211 ) ;
#293 = EDGE_CURVE ( 'NONE', #244, #15, #107, .T. ) ;
#294 = EDGE_LOOP ( 'NONE', ( #218, #144, #90, #44 ) ) ;
#295 = AXIS2_PLACEMENT_3D ( 'NONE', #156, #68, #123 ) ;
#296 = VERTEX_POINT ( 'NONE', #21 ) ;
#297 = ADVANCED_FACE ( 'NONE', ( #194, #94 ), #308, .F. ) ;
#298 = VERTEX_POINT ( 'NONE', #93 ) ;
#299 = ADVANCED_FACE ( 'NONE', ( #1 ), #231, .F. ) ;
#300 = ORIENTED_EDGE ( 'NONE', *, *, #293, .F. ) ;
#301 = DIRECTION ( 'NONE',  ( 0.000000000000000000, 0.000000000000000000, 1.000000000000000000 ) ) ;
#302 = ORIENTED_EDGE ( 'NONE', *, *, #114, .T. ) ;
#303 = CIRCLE ( 'NONE', #162, 12.69999999999999929 ) ;
#304 = LOCAL_TIME ( 10, 33, 37.00000000000000000, #322 ) ;
#305 = PRODUCT_RELATED_PRODUCT_CATEGORY ( 'detail', '', ( #118 ) ) ;
#306 = DIRECTION ( 'NONE',  ( -1.000000000000000000, -0.000000000000000000, -0.000000000000000000 ) ) ;
#307 = DIRECTION ( 'NONE',  ( -1.000000000000000000, -0.000000000000000000, -0.000000000000000000 ) ) ;
#308 = PLANE ( 'NONE',  #265 ) ;
#309 = CARTESIAN_POINT ( 'NONE',  ( -3.000000000000000000, 1.224646799147353256E-15, -10.00000000000000000 ) ) ;
#310 = CARTESIAN_POINT ( 'NONE',  ( -1.614212418857619014, 0.000000000000000000, 0.000000000000000000 ) ) ;
#311 = CARTESIAN_POINT ( 'NONE',  ( 2.999999999999999556, 12.69999999999999929, 0.000000000000000000 ) ) ;
#312 = LINE ( 'NONE', #128, #180 ) ;
#313 = MANIFOLD_SOLID_BREP ( 'Ðý×', #266 ) ;
#314 = DATE_AND_TIME ( #102, #41 ) ;
#315 = DIRECTION ( 'NONE',  ( 0.000000000000000000, 0.000000000000000000, 1.000000000000000000 ) ) ;
#316 = DATE_AND_TIME ( #240, #304 ) ;
#317 = CARTESIAN_POINT ( 'NONE',  ( -3.000000000000000000, 0.000000000000000000, 0.000000000000000000 ) ) ;
#318 = CIRCLE ( 'NONE', #22, 10.00000000000000000 ) ;
#319 = EDGE_CURVE ( 'NONE', #276, #298, #318, .T. ) ;
#320 = DIRECTION ( 'NONE',  ( -1.000000000000000000, -0.000000000000000000, -0.000000000000000000 ) ) ;
#321 = EDGE_CURVE ( 'NONE', #298, #276, #35, .T. ) ;
#322 = COORDINATED_UNIVERSAL_TIME_OFFSET ( 8, 0, .AHEAD. ) ;
#323 = CYLINDRICAL_SURFACE ( 'NONE', #54, 10.00000000000000000 ) ;
#324 = ADVANCED_FACE ( 'NONE', ( #248 ), #70, .F. ) ;
#325 = VERTEX_POINT ( 'NONE', #332 ) ;
#326 = ORIENTED_EDGE ( 'NONE', *, *, #160, .F. ) ;
#327 = EDGE_LOOP ( 'NONE', ( #19, #42 ) ) ;
#328 = EDGE_LOOP ( 'NONE', ( #113, #192 ) ) ;
#329 = PERSON_AND_ORGANIZATION ( #3, #216 ) ;
#330 = EDGE_LOOP ( 'NONE', ( #220, #268, #75, #243 ) ) ;
#331 = VECTOR ( 'NONE', #133, 1000.000000000000000 ) ;
#332 = CARTESIAN_POINT ( 'NONE',  ( 0.5000000000000013323, 1.224646799147353256E-15, -10.00000000000000000 ) ) ;
#333 = LINE ( 'NONE', #95, #219 ) ;
#334 = PERSON_AND_ORGANIZATION ( #3, #216 ) ;
#335 = CARTESIAN_POINT ( 'NONE',  ( -1.614212418857619014, 0.000000000000000000, 10.00000000000000000 ) ) ;
ENDSEC;
END-ISO-10303-21;
